通販横断検索

メンズ  帽子  PC  送料無料  ビーズ  イス  パーカー  レディース  スカート  ASIAN  ダイエット  キャスター  ギター  訳あり  レスポ  ミニ  フック  プロテイン  マンモス  仮面ライダー  ロングスカート  ワイヤー  紳士  下駄  マタニティ  

.ネット限定 日本未発売 プレゼント ギフト 贈り物 海外直送 条件付き送料無料
PW 大人気ステンレス クロムハーツ風 指輪  22606
定価:891円
【商品情報】
◇状態: 新品
◇産地: 海外

【仕様】
◇素材:チタン&ステンレス

【サイズ】
◇リング幅:約 13MM

サイズリスト:

日本号---US号---周囲mm---直径mm
2-------2------41.5-----13.21
4-------3------44.0-----14.05
7-------4------46.5-----14.86
9-------5------49-------15.70
12------6------51.5-----16.51
14------7------54-------17.35
16------8------56.6-----18.19
18------9------59.1-----18.89
21-----10------61.6-----19.84
24-----11------64.1-----20.68
26-----12------66.6-----21.49
28-----13------69.1-----22.33



【付属品】
◇巾着orBOX


★関連キーワード★
高品質/ネット限定/日本未発売/オリジナル/個性的/プレゼント/ギフト/誕生日/記念日/レディース/メンズ/お揃い/アクセサリー/特価/激安/おすすめ/人気/新作

*こちらの商品は海外から直送しますので、通常には、出荷から届けまで3−14日がかかります。
天候や交通状況による発送延長があります。
ご了承ください。

カテゴリ
ショッピング人気キーワード
よくアクセスされる商品